•Performing James Tayor songs

•Teaching Guitar James Taylor Style

The Songs of James Taylor

Guitar tab -  You've Got a Friend (James Taylor Style)

Feedback from purchasers:

"Hi Ian, I receive your e-mail and the tab, perfect :) ...Erik (Belgium)

Buy Now (£5.00)

#----------------------------------PLEASE NOTE---------------------------------#

#This file is the author's own work and represents their interpretation of the #

#song. You may only use this file for private study, scholarship, or research. #

#------------------------------------------------------------------------------#

YOU'VE GOT A FRIEND (AS PER JAMES TAYLOR)

Transcribed by Ian Entwistle

 

 

Level: Advanced

 

 

Written by Carole King/James Taylor

 

 

G

3 2 0 0 0 3

B7II

x 2 4 2 4 2

B7

x 2 1 2 0 2

Em

0 2 2 0 0 0

Em7

0 2 2 0 3 0

C

x 3 2 0 1 0

Am7

x 0 2 0 1 0

Gmaj7

3 2 0 0 3 2

Bm7

x 2 4 2 3 2

D7sus4

x x 0 2 1 3

D7

x x 0 2 1 2

F

1 3 3 2 1 1

F#m7

2 4 2 2 2 0

A7sus4

x 0 2 0 3 0

A7

x 0 2 0 2 0

Cadd9/B

x 2 0 0 1 0

 

Gtr I (E A D G B E) - 'Acoustic Guitar'

 

   Q=94

   G                                                       F#m7    B7II

  4/4

   Gtr I

   E E E E E E E E   E E E E E E E E   S S E E E E E E E   E E E E E E E E

||------3-----------|---3-------3-----|-3---3---3-----3---|-----------------|

||o---------0---0-1-|-------1-----1---|-0h1p0---0---------|-------2-------4-|

||----0---0---2-----|-----0---------0-|-------2-----0-----|-----2-------2---|

||------------------|---------0-------|-------------------|---2-------4-----|

||o-----------------|-3---------------|-------------------|---------2-------|

||--3---------------|-----------------|-3---------3-----3-|-2---------------|

 

 

 Em               B7               Em      B7        Em7

 E E E E E E Q    E E E E E E Q    E E E E E E E E   E E E E E E Q

|----------------|----------------|-----------------|----------------|

|-------0--------|-------0--------|-------0-------0-|-------3--------|

|-----0-----0----|-----2-----2----|-----0-------2---|-----0-----0----|

|---2---------2--|---1---------1--|---2-------1-----|---4---------4--|

|----------------|----------------|-----------------|----------------|

|-0-------0------|-2-------2------|-0-------2-------|-0-------0------|

 

 

 Am7               D7sus4            G                G

 E E E E E E E E   E E E E E E E E   E E Q  E E E E   E E Q  E E E E

|-------0---------|-------3---------|----------------|----------------|

|-------1---1-----|-----1-----1-----|--------0-1-0---|---0----1p0-----|

|-----0-------0---|---2---------2---|-----0--------2-|------------2p0-|

|---2-----------2-|-0-------0-----0-|---0----0h2-0---|-----0----------|

|-0-------0-------|-----------------|----------------|----------------|

|-----------------|-----------------|-3--------------|-3--------------|

 

 

 F#m7              B7               Em      B7        Em7

 E E E E E E E E   E E E E E E Q    E E E E E E E E   E E E E E E Q

|-----------------|----------------|-----------------|----------------|

|-------2---------|-------5---4----|-------0-------0-|-------3--------|

|-----2-----2-----|-----2----------|-----0-------2---|-----0-----0----|

|---2---------2---|---4------------|---2-------1-----|---2---------2--|

|---------------4-|-2-------2---2--|-----------------|----------------|

|-2-------2-------|----------------|-0-------2-------|-0-------0------|

 

 

 Am7              Bm7              D7sus4           D7

 E E E E E E Q    E E E E E E Q    E E E E E E Q    S S E E E E E E E

|---------0------|----------------|-------3--------|-2h3p2-0-----------|

|-------1---1----|-------3--------|-----1-----1----|-----------3---1---|

|-----0-------0--|-----2-----2----|---2---------2--|---------0---0---0-|

|---2------------|---4---------4--|-0-------0------|-0-----------------|

|-0--------------|-2-------2------|----------------|-------3---2---0---|

|----------------|----------------|----------------|-------------------|

view cart

The four files are provided in a zipped format.

1. A tab html file.

2. A tab doc file.

3. A .ptb powertab midi file - Powertab software can be downloaded from the introductory Guitar Tab page.

4. A .pdf file which is read in Adobe reader software and shows both tab, notation and the lyrics.

 

Please click on the orange button 'Buy Now' Paypal link alongside & on completion of payment in GB Pound Sterling (£), you will be given an automated download instruction. For more than one song just continue clicking the 'Buy Now' buttons and they are added to the Cart before final purchase.

You've Got A Friend (Greatest Hits)