•Performing James Tayor songs

•Teaching Guitar James Taylor Style

The Songs of James Taylor

Guitar tab -  You Can Close Your Eyes

#----------------------------------PLEASE NOTE---------------------------------#

#This file is the author's own work and represents their interpretation of the #

#song. You may only use this file for private study, scholarship, or research. #

#------------------------------------------------------------------------------#

YOU CAN CLOSE YOUR EYES

Transcribed By Ian Entwistle

Level: Advanced

Written by James Taylor

 

D

x x 0 2 3 2 G

3 2 0 0 3 3 A

x 0 2 2 2 0 Asus2/E

0 0 2 2 0 0

G(type 2)

3 2 0 0 0 3 Em7

0 2 2 0 3 0 Em9/B

x 2 4 0 3 0 Csus2/G

3 x 0 0 1 3

Em9

0 x 0 0 3 2 C

x 3 2 0 1 0 Bm

x 2 4 4 3 2 A7

x 0 2 0 2 0

Em

0 2 2 0 0 0 D/F#

2 0 0 2 x x G5/F#

2 x 0 0 3 3 Em7(type 2)

0 2 2 0 3 3

A7sus4

x 0 2 0 3 0

 

Gtr I (E A D G B E) - 'Capo 1'

 

 

         Q=120

              D      G  A7sus4       A7       D      G  G5/F#Em7(tyA7sus4

4/4

         Gtr I

 H.      Q    E E Q  Q  Q    +Q   Q  Q.   E   E E Q  Q  Q    Q  Q  Q.   E

|------------|---0-2--3--0--|-(0)-----0------|---0-2--3-----|-3-----0-------|

|------------|-3------3--3--|-(3)-----2------|-3------3-----|-3-----3-------|

|---------2--|-----------0--|-(0)-----0----2-|--------------|----0-------0--|

|------------|-0------------|----------------|-0------------|---------------|

|------------|-----------0--|-(0)--0--0------|--------------|-------0-------|

|------------|--------3-----|----------------|--------3--2--|-0-------------|

 

 

   D                G      D         Asus2/E          A

   E E E E E E Q    E E Q  E E E E   Q  E E E E E E   E E E E E E Q

||--------2--------|-----3--------2-|------0---------|-------0--------|

||o---3------------|-----3----3-----|----------0-----|-0h2-------2----|

||------2-----2----|---0--------2---|--------------2-|----------------|

||--0-----------0--|--------0-------|----2-------2---|-----2-------2--|

||o----------------|----------------|-0--------------|-0-------0------|

||----------2------|-3--------------|--------0-------|----------------|

 

 

 Em7     Em9/B     A       G(type 2) Csus2/G       Em7        A7sus4

 E E E E E E E E   E E E E E E E E   E E E E E E E E   E E Q  H

|-----------------|---------------3-|-------3---------|--------0----|

|-------3-------3-|-------2---------|-1p0-----------3-|---3----3----|

|---0-------0-----|---2-------0-----|-----0-----0---0-|---0----0----|

|-----2-------4---|-----2-------0---|-----------------|-------------|

|---------2-------|-0---------------|-----------------|--------0----|

|-0---------------|---------3-------|---------3---3---|-0---0-------|

 

 

 D                G      D        Asus2/E           A

 E E E E E E Q    E E Q  E E Q    E E E E E E E E   E E E E E E Q

|-------2--------|-----3------2--|-------0---------|-0-0-----0-------|

|---3-------3----|-----3------3--|-----------0-----|-3-2p0---0h2-----|

|-----2-------2--|---0------2----|---2-----------2-|-------2---------|

|-0--------------|--------0------|-----2-------2---|-----------------|

|----------------|---------------|-0---------------|-0-------0---0---|

|---------2------|-3-------------|---------0-------|-----------------|

Some viewers and prospective purchasers are concerned over complexity of tab/notation. On request I will send out a handwritten pdf of  chord diagrams, with timing for phrasing of the words for 'You Can Close Your Eyes'. Please go to the contact page if you would like the free pdf.

Buy Now (£5.00) view cart

The four files are provided in a zipped format.

1. A tab html file.

2. A tab doc file.

3. A .ptb powertab midi file - Powertab software can be downloaded from the introductory Guitar Tab page.

4. A .pdf file which is read in Adobe reader software and shows both tab, notation and the lyrics.

 

Please click on the orange button 'Buy Now' Paypal link alongside & on completion of payment in GB Pound Sterling (£), you will be given an automated download instruction. For more than one song just continue clicking the 'Buy Now' buttons and they are added to the Cart before final purchase.

You Can Close Your Eyes websample