•Performing James Tayor songs

•Teaching Guitar James Taylor Style

The Songs of James Taylor

Guitar tab -  Will You Love Me Tomorrow (Carole King)

Buy Now (£5.00)

#----------------------------------PLEASE NOTE---------------------------------#

#This file is the author's own work and represents their interpretation of the #

#song. You may only use this file for private study, scholarship, or research. #

#------------------------------------------------------------------------------#

WILL YOU LOVE ME TOMORROW (JAMES TAYOR VERSION)

Transcribed by Ian Entwistle

 

Level: Advanced

Written by Carole King

 

C

x 3 2 0 1 0F

x x 3 2 1 1F/G

3 x x 2 1 1G7

3 2 3 0 0 x

Esus4

0 2 2 2 0 0E

0 2 2 1 0 0Am

x 0 2 2 1 0Am/G

3 0 2 2 1 0

F(type 2)

1 3 3 2 1 1F/G(type 2)

3 x 3 2 1 xDm/C

x 3 x 2 3 1Cadd9

x 3 2 0 3 0

Cmaj7

x 3 2 0 0 0Em

0 2 2 0 0 0D7sus4

x x 0 2 1 3D7

x x 0 2 1 2

Dm7

x x 0 2 1 1Asus2

x 0 2 2 0 0

 

Gtr I (E A D G B E) - 'No Capo'

 

 Q=90

                 C                 C

4/4

 Gtr I

 H    Q  E S S   E E E Q  Q  S S   E E E Q  Q  S S

|---------------|-----0-1--3------|-----0-1--3------|

|---------------|-----1-3--5------|-----1-3--5------|

|-----------0-2-|---0---------0-2-|---0---------0-2-|

|---------------|-----------------|-----------------|

|---------------|-3---------------|-3---------------|

|---------------|-----------------|-----------------|

 

 

 F               F/G

 E E E Q  Q.     E E E E E E E E

|-----1-3--5----|-------------------|

|-----1-1--6----|-1---1---1---1-----|

|---2-----------|-2---2---2---2-----|

|-3-------------|---3---3---3---3---|

|---------------|-------------------|

|---------------|-3---3---3---3-----|

 

 

 C               C               F               F/G

4/4

 E E E Q  Q.     E E E Q  Q.     E E E Q  Q.     E E E E E E E E

|-----0-1--3----|-----0-1--3----|-----1-3--5----|------------------|

|-----1-3--5----|-----1-3--5----|-----1-1--6----|-1---1---1---1----|

|---0-----------|---0-----------|---2-----------|-2---2---2---2----|

|---------------|---------------|-3-------------|---3---3---3---3--|

|-3-------------|-3-------------|---------------|------------------|

|---------------|---------------|---------------|-3---3---3---3----|

 

 

 C               C               F/G               G7

 E E E Q  Q.     E E E Q  Q.     E E E E E E E E   E E E E E E E E

|-----0-1--3----|-----0-1--3----|-----------------|-----------------|

|-----1-3--5----|-----1-3--5----|-1---1---1-1---1-|-0---0---0-0---0-|

|---0-----------|---0-----------|-2---2---2-2---2-|-0---0---0-0---0-|

|---------------|---------------|---3---3-----3---|---3---3-----3---|

|-3-------------|-3-------------|-----------------|-----------------|

|---------------|---------------|-3-------3-------|-3-------3-------|

 

 

 Esus4           E           Esus4    Am                Am        Am/G

 E E  E E E E  E E   E E E E E E Q    E E E E E E E E   S S E E E E E E E

|-------------------|----------------|-0---------------|-------0------------|

|-0---!0-0-----!0-0-|-----0-0---0----|---1-----0-1-----|-1p0-------0-1-0----|

|-2---!2-2-----!2-1-|-----1-1h2-2----|-----2---------2-|-----2---2-2-----0--|

|---2-!2-----2-!2---|---2-2----------|-------2-----2---|-----------2--------|

|-------------------|----------------|-0-------0-------|-0------------------|

|-0--------0--------|-0-------0---0--|-----------------|-----------3--------|

view cart

The four files are provided in a zipped format.

1. A tab html file.

2. A tab doc file.

3. A .ptb powertab midi file - Powertab software can be downloaded from the introductory Guitar Tab page.

4. A .pdf file which is read in Adobe reader software and shows both tab, notation and the lyrics.

 

Please click on the orange button 'Buy Now' Paypal link alongside & on completion of payment in GB Pound Sterling (£), you will be given an automated download instruction. For more than one song just continue clicking the 'Buy Now' buttons and they are added to the Cart before final purchase.

Will You Love Me Tomorrow