•Performing James Tayor songs

•Teaching Guitar James Taylor Style

The Songs of James Taylor

Guitar tab -  Wild Mountain Thyme

Buy Now (£5.00)

#----------------------------------PLEASE NOTE---------------------------------#

#This file is the author's own work and represents their interpretation of the #

#song. You may only use this file for private study, scholarship, or research. #

#------------------------------------------------------------------------------#

WILD MOUNTAIN THYME

As recorded by James Taylor

 

 

Transcribed by Ian Entwistle

 

Words and Music by Traditional

Arranged by James Taylor

 

 

D/F#

2 0 0 2 3 2

Gsus2

3 0 0 2 3 x

Em7

0 2 2 0 3 0

A7sus4

x 0 2 0 3 0

D

x x 0 2 3 2

C#°7/E

0 1 2 0 2 0

Bm

x 2 4 4 3 x

Bm/A

x 0 4 4 3 x

G5

3 x 0 0 3 3

Em9

0 x 4 0 3 x

F#m7

2 x 2 2 2 x

A

x 0 2 2 2 0

B7sus2sus4+9

x 2 0 2 2 0

Em

0 2 2 0 0 0

G

3 x x 0 0 x

E/Ab

4 x x 4 0 0

D/A

x 0 0 2 3 2

G/A

x 0 x 4 3 3

E7sus4

0 2 0 2 3 0

E7

0 2 0 1 3 0

 

Gtr I (E A D G B E) - 'Guitar 1'

 

               D/F#            Gsus2

4/4

   Gtr I

 H E E E E     Q  Q  E E E E   Q  Q  E E E E

|-----------||----------------|---------------|

|---------3-||o-------------3-|-------------0h|

|-----2-----||----------2-----|---------2-----|

|-------0---||-----0------0---|----0------0---|

|-----------||o---------------|---------------|

|---2-------||--2-----2-------|-3-----3-------|

 

 

        D/F#     Em7     A7sus4

 E E Q  E E Q    E E E E E E E E

|---------------|------------------|

|-3-------------|-------3-------3--|

|---2------2----|---0-------0------|

|-----0------0--|-----2-------2----|

|---------------|---------0--------|

|-3------2------|-0----------------|

 

 

 D                        D/F#      G5      C#°7/E    Bm      Bm/A

 E E E E E E Q    E E E E E E E E   E E E E E E E E   E E E E E E E E

|-------2p0---0--|-0h2-------------|-----------------|------------------|

|---3-------3----|-------3-------3-|-------3-------2-|-------3-------3--|

|-----2----------|-----2-----2-----|---0-------0-----|---4-------4------|

|-0-------0---0--|-0-----------0---|-----0-------2---|-----4-------4----|

|----------------|-----------------|---------1-------|-2-------0--------|

|----------------|---------2-------|-3---------------|------------------|

 

 

view cart

The four files are provided in a zipped format.

1. A tab html file.

2. A tab doc file.

3. A .ptb powertab midi file - Powertab software can be downloaded from the introductory Guitar Tab page.

4. A .pdf file which is read in Adobe reader software and shows both tab, notation and the lyrics.

 

Please click on the orange button 'Buy Now' Paypal link alongside & on completion of payment in GB Pound Sterling (£), you will be given an automated download instruction. For more than one song just continue clicking the 'Buy Now' buttons and they are added to the Cart before final purchase.

Wild Mountain Thyme web sample