•Performing James Tayor songs

•Teaching Guitar James Taylor Style

The Songs of James Taylor

Guitar tab -  Wandering

Buy Now (£5.00)

 

#----------------------------------PLEASE NOTE---------------------------------#

#This file is the author's own work and represents their interpretation of the #

#song. You may only use this file for private study, scholarship, or research. #

#------------------------------------------------------------------------------#

WANDERING (JAMES TAYLOR)

Transcribed by Ian Entwistle

 

 

Level: Advanced

 

 

Written by Traditional with added lyrics by J Taylor

 

 

Aadd9

x 0 2 4 2 0

C#m7

x 4 6 4 5 4

F#7sus4

2 4 2 4 2 2

F#7

2 4 2 3 2 2

Bm7open

x 2 0 2 3 2

E9

0 2 0 1 0 2

A

x 0 2 2 2 0

D

x x 0 2 3 2

D/E

0 0 0 2 3 2

E(type 2)

0 x x 4 5 4

E

0 2 2 1 0 0

 

Gtr I (E A D G B E) - 'Guitar'

 

 Q=99

 Aadd9

4/4

 Gtr I

 E E E E E E E E   E E E E E E E E   E E E E E E E E   E E E E E E E E

|-------0-------0-|-------0---------|-------0-------0-|-------0---------|

|-----2-----2-----|---2-------2-----|-----2-----2-----|---2-------2-----|

|---4---------4---|-----4---------4-|---4---------4---|-----4---------4-|

|-----------------|---------2-------|-----------------|---------2-------|

|-0---------------|-0---------------|-0---------------|-0---------------|

|---------0-------|-------------0---|---------0-------|-------------0---|

 

 

 Aadd9            C#m7             F#7sus4 F#7      Bm7open E9

 E E E E E E Q    E E E E E E Q    E E E E E E Q    E E E E E E E E

|-----0-----0----|-----4-----4----|-----2-------2--|-----2-------2----|

|-----2-----2----|-----5-----5----|-----2-------2--|-----3-------3----|

|---4-----4------|---4-----4------|---4-------3----|---2---2---1---1--|

|----------------|----------------|----------------|------------------|

|-0-----0-----0--|-4-----4-----4--|-4-----4--------|-2----------------|

|----------------|----------------|---------2------|---------0--------|

 

 

 A       Bm7         C#m7    D

 E E E E E S S E E   E E E E E E E E

|-------------------|-------------2---|

|-----2---------3---|-----5-------3---|

|-----2---------2---|-----4-----2---2-|

|---2-------2h4---2-|---6-----0-------|

|-0-----0-2---------|-4-----4---------|

|-------------------|-----------------|

view cart

The four files are provided in a zipped format.

1. A tab html file.

2. A tab doc file.

3. A .ptb powertab midi file - Powertab software can be downloaded from the introductory Guitar Tab page.

4. A .pdf file which is read in Adobe reader software and shows both tab, notation and the lyrics.

 

Please click on the orange button 'Buy Now' Paypal link alongside & on completion of payment in GB Pound Sterling (£), you will be given an automated download instruction. For more than one song just continue clicking the 'Buy Now' buttons and they are added to the Cart before final purchase.

Wandering Websample