•Performing James Tayor songs

•Teaching Guitar James Taylor Style

The Songs of James Taylor

Guitar tab -  Sweet Baby James (Squibnocket version)

Buy Now (£5.00) view cart

The four files are provided in a zipped format.

1. A tab html file.

2. A tab doc file.

3. A .ptb powertab midi file - Powertab software can be downloaded from the introductory Guitar Tab page.

4. A .pdf file which is read in Adobe reader software and shows both tab, notation and the lyrics.

 

Please click on the orange button 'Buy Now' Paypal link alongside & on completion of payment in GB Pound Sterling (£), you will be given an automated download instruction. For more than one song just continue clicking the 'Buy Now' buttons and they are added to the Cart before final purchase.

 

#----------------------------------PLEASE NOTE---------------------------------#

#This file is the author's own work and represents their interpretation of the #

#song. You may only use this file for private study, scholarship, or research. #

#------------------------------------------------------------------------------#

SWEET BABY JAMES (SQUIBNOCKET VERSION)

Transcribed by Ian Entwistle

Level: Intermediate

Written by James Taylor

 

D

x x 0 2 3 2Em7/A

x 0 0 0 3 0G

3 2 0 0 3 3G5/F#

2 x 0 0 3 3

A7sus4

x 0 2 0 3 0Asus2

x 0 2 2 0 0A

x 0 2 2 2 0Em7

0 2 2 0 3 3

F#m

2 4 4 2 2 2Bm

x 2 4 4 3 2Em7(type 2)

0 2 2 0 3 0A7

x 0 2 0 2 0

E7sus4/B

x 2 0 2 3 0E7

0 2 0 1 3 0

 

Gtr I (E A D G B E) - 'Capo 1'

 

 

 Q=110

 D                    Em7/A

3/4

 Gtr I

 E  E   E   E   Q     E  E   E   E   Q

|-0h=2---2---2---2---|-2p=0---0---0---0---|

|--------3--(3)--3---|-3-(3)--3--(3)--3---|

|-0h=2---2--(2)--2---|-2p=0---0--(0)--0---|

|-0-(0)-(0)-(0)-(0)--|--------------------|

|--------------------|-0-(0)-(0)-(0)-(0)--|

|--------------------|--------------------|

 

 

 D                    Em7/A

 E  E   E   E   Q     E  E   E   E   Q

|-0h=2---2---2---2---|-2p=0---0---0---0---|

|--------3--(3)--3---|-3-(3)--3--(3)--3---|

|-0h=2---2--(2)--2---|-2p=0---0--(0)--0---|

|-0-(0)-(0)-(0)-(0)--|--------------------|

|--------------------|-0-(0)-(0)-(0)-(0)--|

|--------------------|--------------------|

 

 

 D                    Em7/A

3/4

 E  E   E   E   Q     E  E   E   E   Q

|-0h=2---2---2---2---|-2p=0---0---0---0---|

|--------3--(3)--3---|-3-(3)--3--(3)--3---|

|-0h=2---2--(2)--2---|-2p=0---0--(0)--0---|

|-0-(0)-(0)-(0)-(0)--|--------------------|

|--------------------|-0-(0)-(0)-(0)-(0)--|

|--------------------|--------------------|

 

 

 D                    D

 E  E   E   E   Q     E  E   Q    Q

|-0h=2---2---2---2---|----2---2----2---|

|--------3--(3)--3---|----3---3----3---|

|-0h=2---2--(2)--2---|--------2----2---|

|-0-(0)-(0)-(0)-(0)--|-0-(0)-(0)--(0)--|

|--------------------|-----------------|

|--------------------|-----------------|

 

 

 G             G5/F#   Em7                  A7sus4

 E  E   E   E  E  E    E  E   E   E   Q     E  E   E   E   Q

|---------------------|----------------3---|----------------0---|

|------------3--------|------------3---3---|------------3---3---|

|----0-------------0--|----0-----------0---|----0-----------0---|

|--------0------------|--------2-------2---|--------2-----------|

|---------------------|--------------------|-0-(0)-(0)-(0)-(0)--|

|-3-(3)-(3)-(3)-2-(2)-|-0-(0)-(0)-(0)-(0)--|--------------------|

 

 

 A7sus4               Asus2                 A

 E  E   E   E   Q     E  E   E   E   E  E   E  E   Q    Q

|----------------0---|--------0------------|--------0----0---||

|------------3---3---|------------0--(0)---|-0h=2---2----2---||

|----0-----------0---|----2--------------2-|--------2----2---||

|--------2-----------|--------2------------|-----------------||

|-0-(0)-(0)-(0)-(0)--|-0-(0)-(0)-(0)--0----|-0-(0)-(0)--(0)--||

|--------------------|---------------------|-----------------||

 

 

 D                 A                 G

 E  E   Q    Q     E  E   Q    Q     E  E   Q    Q

|--------2----2---|--------0----0---|--------3----3---|

|--------3----3---|--------2----2---|--------3----3---|

|----2---2----2---|----2---2----2---|----0---0----0---|

|-0-(0)-(0)--(0)--|-----------------|-----------------|

|-----------------|-0-(0)-(0)--(0)--|-----------------|

|-----------------|-----------------|-3-(3)-(3)--(3)--|

 

Sweet Baby James