•Performing James Tayor songs

•Teaching Guitar James Taylor Style

The Songs of James Taylor

Guitar tab -  Steamroller Blues

#----------------------------------PLEASE NOTE---------------------------------#

#This file is the author's own work and represents their interpretation of the #

#song. You may only use this file for private study, scholarship, or research. #

#------------------------------------------------------------------------------#

STEAMROLLER BLUES

As recorded by James Taylor

Transcribed by Ian Entwistle Words and Music by James Taylor

 

Badd4/C#

x 4 x 4 4 0 F#+7

2 x 0 3 3 0 Aadd4/B

x 2 0 2 2 0 E

0 2 2 1 0 0

B7+9

x 2 1 2 3 x A

x 0 2 2 2 0 E7

0 2 2 1 3 0 G

3 x 0 0 0 x

D6/F#

2 0 0 2 0 x E7+9

0 2 2 1 3 3 B7

x 2 1 2 0 x

 

Gtr I (E A D G B E) - 'Capo 2'

 Q.=65

       Badd4/F#+7  Aadd4/B E         B7+9

12/8

 Gtr I

 E E E E E E E E E E E E   Q.   E Q  H.

|---------0-----0-----0---|-----------------|

|-------4---4-3---3-2---2-|-0---------3-----|

|-------4-----3-----2-----|-1---------2-----|

|-------------------------|-2---------1-----|

|-0-1-2-4-----------2-----|------0-1--2-----|

|-------------2-----------|-0---------------|

 

 

 E                      A

 Q  E Q  E Q  E E E E   Q  E Q  E Q  E E E E

|----------------------|----------------------|

|----------------------|----------------------|

|----------------------|----------------------|

|----------------------|-2--2-4--4-5--5-4-5-4-|

|-2--2-4--4-5--5-4-5-4-|-0--0-0--0-0--0-0---0-|

|-0--0-0--0-0--0-0---0-|----------------------|

 

 

 E                           E

 Q  E S S E E S S E E Q  E   S  S E E E S  S E E E E Q  E

|---------------------------|------0----------0---0---0----|

|---------------------------|-0--------2-0--------3---3----|

|---------------------------|-0h=1-----2-0h=1-----1---1----|

|----------0-2-0h2-0--------|---h2-------0-h2--------------|

|-2--2-0h2-----------2------|------------------------------|

|-0--0-----------------3--0-|-0------0-0------0-0---0-0--0-|

 

Feedback from purchasers:

"Dear Ian, Thank you much!

Been wanting to learn this one for a long long time now.  Your playing / tab appears to be the most accurate to the original '70 BBC recording he did. Thanks again,".... Will from Chamlee USA

Buy Now (£5.00) view cart

The four files are provided in a zipped format.

1. A tab html file.

2. A tab doc file.

3. A .ptb powertab midi file - Powertab software can be downloaded from the introductory Guitar Tab page.

4. A .pdf file which is read in Adobe reader software and shows both tab, notation and the lyrics.

 

Please click on the orange button 'Buy Now' Paypal link alongside & on completion of payment in GB Pound Sterling (£), you will be given an automated download instruction. For more than one song just continue clicking the 'Buy Now' buttons and they are added to the Cart before final purchase.

Steamroller Blues websample