•Performing James Tayor songs

•Teaching Guitar James Taylor Style

The Songs of James Taylor

Guitar tab -  Something In The Way She Moves

#----------------------------------PLEASE NOTE---------------------------------#

#This file is the author's own work and represents their interpretation of the #

#song. You may only use this file for private study, scholarship, or research. #

#------------------------------------------------------------------------------#

SOMETHING IN THE WAY SHE MOVES

James Taylor

Level: Advanced

Written by Ian Entwistle

 

A

x 0 2 2 2 0Em9

0 x 4 0 3 0Em

0 2 2 0 0 0D

x x 0 2 3 2

G

3 2 0 0 0 3Cadd9

x 3 2 0 3 3F#m7

2 4 2 2 2 2Bm7

x 2 4 2 3 2

Bm7/E

0 2 4 2 3 2Em7

0 2 2 0 3 0

 

Gtr I (E A D G B E) - 'Capo 3'

 A               Em9               A               Em9

4/4

 Gtr I

 Q  E E Q E  E    E E E E E E Q    Q  E E Q  E E    E E E E E E Q

|---------------|-----------------|---------------|-------------------|

|--------2------|----3------------|--------2------|----3--------------|

|---------------|--------0--------|---------------|--------0----------|

|----0h2------2-|-/4---------4----|----0h2------2-|-/4---------4------|

|-0--------0----|-----------------|-0---------0---|-------------------|

|---------------|--0---0---0---0--|---------------|--0---0---0---0----|

 

 

 A               Em9               A               Em9

 Q  E E Q  E E    E E E E E E Q    Q  E E Q  E E    E E E E E E Q

|---------------|-----------------|---------------|------------------||

|--------2------|----3------------|--------2------|----3-------------||

|---------------|--------0--------|---------------|--------0---------||

|----0h2------2-|-/4---------4----|----0h2------2-|-/4---------4-----||

|-0---------0---|-----------------|-0---------0---|------------------||

|---------------|--0---0---0---0--|---------------|--0---0---0---0---||

 

 

 A                Em9   A            Em

 E E E E E E Q     H    Q   E   E    H     E  E E E

|-----------0----|-------0----------|--------------0-|

|-------2--------|--3----2----------|-0--------0-----|

|---2-----2------|--0----2---2------|-0----------0---|

|-----2-------2--|-/4----2-------2--|-2-----2----2---|

|-0--------------|-------0--(0)-(0)-|----------------|

|----------------|--0---------------|-0----(0)-------|

 

 

 D       G         A

 E E E E E E E E   E E E E E E E E

|-------2---------|-------0---0-------|

|---3-----------3-|-------2---0-------|

|-----2-----0-----|---2-----------2---|

|-0-----------0---|-----2-------2-----|

|-----------------|-0-----------------|

|---------3-------|---------0---------|

 

 

 A                Em               G       Cadd9

 E E E E E E Q    Q  E E E E E E   E E E E E E E E

|-0-----0--------|-0--------------|-----------------|

|-0h2-------2----|-0--------0-----|-------0-------3-|

|----------------|------0-------0-|---0-------0-----|

|-----2-------2--|----2---2-------|-----0-------2---|

|-0-------0------|----------------|---------3-------|

|----------------|-0----------2---|-3---------------|

 

 

 D                D

 Q  E E E E E E   E E E E E E E E

|------0h2p0-----|-0h2-----0----------||

|------3---3-----|-3-----3---2p0------||

|----2---------2-|-----2---------2----||

|-0----------0---|-0-------0----------||

|----------------|--------------------||

|----------------|--------------------||

 

Buy Now (£5.00) view cart

The four files are provided in a zipped format.

1. A tab html file.

2. A tab doc file.

3. A .ptb powertab midi file - Powertab software can be downloaded from the introductory Guitar Tab page.

4. A .pdf file which is read in Adobe reader software and shows both tab, notation and the lyrics.

 

Please click on the orange button 'Buy Now' Paypal link alongside & on completion of payment in GB Pound Sterling (£), you will be given an automated download instruction. For more than one song just continue clicking the 'Buy Now' buttons and they are added to the Cart before final purchase.

Something In The Way She Moves websample