•Performing James Tayor songs

•Teaching Guitar James Taylor Style

The Songs of James Taylor

Guitar tab -  She Thinks I Still Care

Buy Now (£5.00)

#----------------------------------PLEASE NOTE---------------------------------#

#This file is the author's own work and represents their interpretation of the #

#song. You may only use this file for private study, scholarship, or research. #

#------------------------------------------------------------------------------#

SHE THINKS I STILL CARE (JAMES TAYOR VERSION)

Transcribed by Ian Entwistle

 

Level: Advanced

Written by Dickey Lee & Steve Duffy (George Jones hit in 1962)

 

E

0 2 2 1 0 0Esus4/F#

2 x x 2 0 0E/Ab

4 x x 4 0 0A

x 0 2 2 2 0

D

x x 0 2 3 2E7sus4

0 0 2 4 3 0A7

x 0 2 0 2 0B7

x 2 4 2 4 2

B7/F#

2 2 4 2 4 2E7sus4(type 2)

0 2 2 2 3 0A(type 2)

x 0 2 2 2 5

 

Gtr I (E A D G B E) - 'Capo 1'

 

 Q=90

    E  Esus4E/AA                E     Esus4/E/Ab

4/4

    Gtr I

 Q  Q  Q  Q    Q   E E E E Q    Q   E E E E Q

|----0--0--0--|-0--!0-0---0----|-0--!0-0---0----|

|----0--0--0--|-2--!2-0---2----|-0--!0-0---0----|

|----1--2--4--|-2--!2-2---2----|-1--!1-2---4----|

|-------------|----------------|----!2----------|

|-------------|-0-----------0--|----------------|

|----0--2--4--|---------0------|-0-------2---4--|

 

 

 A      D   A   E     A  E  Esus4E/Ab

        |-3-|

 Q.   E E E E E S S   Q  Q  Q  Q

|-0------0h2-0---0---|-0--0--0--0---|

|-2------3---2---0---|-2--0--0--0---|

|-2----2-----2-----1-|-2--1--2--4---|

|--------0-----------|--------------|

|-0------------0-----|-0------------|

|----------------0---|----0--2--4---|

 

 

 $

 A                 D                 A    E7sus4A     A

 E E E E E E E E   E E E E E E E E   Q  E E E E E E   E E E E Q  Q

|-----0-------0---|-----2-------2---|--------0-------|-----0----------|

|-----2-------2---|-----3-------3---|----2h3---3-2---|-2h3-2-3-2------|

|---2---2---2---2-|---2---2---2---2-|----2h4---4-2-2-|-2h4---4-2------|

|-----------------|-0---------------|----------------|----------------|

|-0---------------|---------0-------|-0--------------|-0--------------|

|---------0-------|-----------------|--------0-------|---------2--4---|

 

 

 A                 E                 A                 A   E  Esus4E/Ab

 E E E E E E E E   E E E E E E E E   E E E E E E E E   E E Q  Q  Q

|-----0-------0---|-----0-------0---|-------0-----0---|-0---0--0--0---|

|-----2-------2---|-----0-------0---|-------0-----0---|-0h2-0--0--0---|

|---2---2---2---2-|---1---1---1---1-|---2-------2---2-|-----1--2--4---|

|-----------------|-----------------|-----2-------2---|---------------|

|-0---------------|---------2-------|-0-------0-------|-0-------------|

|---------0-------|-0---------------|-----------------|-----0--2--4---|

 

 

                                                               To Coda

 A                 A7                D                 D     A   E7sus4

 E E E E E E E E   E E E E E E E E   E E E E E E E E   E E E E E E  Q

|-----0-------0---|-----0-------0---|-----2-------2---|-----2-0-----!0---|

|-----2-------2---|-----2-------2---|-----3-------3---|-----3-2---3-!3---|

|---2---2---2---2-|---0---0---0---0-|---2---2---2---2-|---2---2---4-!4---|

|-----------------|-----------------|-0---------------|-0-----------!2---|

|-0---------------|-0---------------|---------0-------|---------0--------|

|---------0-------|---------0-------|-----------------|------------------|

 

 

                                                       D.S. al Coda

 A                 E                 A                 A   E  Esus4E/Ab

 E E E E E E E E   E E E E E E E E   E E E E E E E E   E E Q  Q  Q

|-----0-------0---|-----0-------0---|-------0-----0---|-0---0--0--0---|

|-----2-------2---|-----0-------0---|-------0-----0---|-0h2-0--0--0---|

|---2---2---2---2-|---1---1---1---1-|---2-------2---2-|-----1--2--4---|

|-----------------|-----------------|-----2-------2---|---------------|

|-0---------------|---------2-------|-0-------0-------|-0-------------|

|---------0-------|-0---------------|-----------------|-----0--2--4---|

 

view cart

The four files are provided in a zipped format.

1. A tab html file.

2. A tab doc file.

3. A .ptb powertab midi file - Powertab software can be downloaded from the introductory Guitar Tab page.

4. A .pdf file which is read in Adobe reader software and shows both tab, notation and the lyrics.

 

Please click on the orange button 'Buy Now' Paypal link alongside & on completion of payment in GB Pound Sterling (£), you will be given an automated download instruction. For more than one song just continue clicking the 'Buy Now' buttons and they are added to the Cart before final purchase.

She Thinks I Still Care sample