•Performing James Tayor songs

•Teaching Guitar James Taylor Style

The Songs of James Taylor

Guitar tab -  Secret Of Life

Buy Now (£5.00)

#----------------------------------PLEASE NOTE---------------------------------#

#This file is the author's own work and represents their interpretation of the #

#song. You may only use this file for private study, scholarship, or research. #

#------------------------------------------------------------------------------#

SECRET OF LIFE

Transcribed by Ian Entwistle

Level: Advanced

Written by James Taylor

 

Aadd9

x 0 2 4 2 0E7sus4

0 2 0 2 0 0E7

0 2 0 1 0 0D/G

x x x 0 3 2

A7

x 0 2 0 2 0Dmaj7

x x 0 2 2 2C#m

x 4 6 6 5 4F#add9

2 4 6 3 2 2

F#7

2 4 2 3 2 2C+/C#

x 4 6 5 5 4C#m11

x 4 2 4 4 2F#7+5

2 4 2 3 3 2

C#m7

x 4 6 4 5 4Bm7

x 2 4 2 3 2E7/F#

2 2 0 1 0 0E+7

0 x 0 1 1 0

Em7

0 2 2 0 3 0A7sus4

x 0 2 0 3 0Bm7/E

0 2 4 2 3 5C#madd9/A

x 0 6 6 4 0

 

Gtr I (E A D G B E) - 'Guitar 1'

 

 

 Q=87

 Aadd9                   E7sus4      Aadd9                   E7sus4

4/4

 Gtr I

 E E E E E E E E   E E E E E E E E   E E E E E E E E   E E E E E E E E

|-------0---------|-----------------|-------0---------|------------------|

|-----2-----2-----|-2-------------0-|-----2-----2-----|-2-------------0--|

|---4-----4---4---|-----4---2---2---|---4-----4---4---|-----4---2---2----|

|---------------2-|-----------------|---------------2-|------------------|

|-0---------------|---0---2---------|-0---------------|---0---2----------|

|-----------------|-----------0-----|-----------------|-----------0------|

 

 

 Aadd9                     E7sus4    Aadd9

 E E E E E E E E   E E E E E E E E   E E E E E E E E   E E E E E E E E

|-------0-------0-|-------0---------|-------0---------|-------------------|

|-----2-------2---|-----2---------0-|-----2-----2-----|-2-------------0---|

|---4-------4-----|---4---------2---|---4-----4---4---|-----4---2---2-----|

|-----------------|-----------0-----|---------------2-|-------------------|

|-0-------0-------|-0---------------|-0---------------|---0---2-----------|

|-----------------|---------0-------|-----------------|-----------0-------|

 

 

 Aadd9             E7sus4           Aadd9         E7sus4E7  D/G A7

 E E E E E E E E   E E E E E E Q    E E E E E E E E   E E E E E E Q

|-------0-------0-|-------------0--|-------0---------|-------2---0----|

|-----2-------2---|-------0--------|-----2---------0-|---0---3---2----|

|---4-------4-----|-----2----------|---4---------4-2-|---1-----0------|

|-----------------|---0-------0----|-----------2-----|-0--------------|

|-0-------0-------|----------------|-0-------0-------|-------------0--|

|-----------------|-0-------0------|-----------------|-----0----------|

 

 

 Dmaj7             C#m               F#add9  F#7      C#m11   F#7+5

 E E E E E E E E   E E E E E E E E   E E E E E E Q    E E E E E E E E

|-----2-----2-----|-----------------|-------------2--|-----2-------2---|

|-----2-----2-----|-----5-----5-----|-------2--------|-4-------3-------|

|---2-----2-----2-|-----6-----6-----|-----3----------|-4-------3-------|

|-0-----0-----0---|---6-----6-----6-|---6-------2----|---2---2---2---2-|

|-----------------|-4-----4-----4---|---------4------|-4-------4-------|

|-----------------|-----------------|-2--------------|-----------------|

 

 

 Bm7               E7      E7/F#     Bm7               E+7

 E E E E E E E E   E E E E E E E E   E E E E E E E E   E E E E E E E E

|-----------------|-----------------|-----------------|-----------------|

|-----3-----3-----|-----0-------0---|-----3-----3-----|-----1-------1---|

|-----2-----2-----|-----1-------1---|-----2-----2-----|-----1-------1---|

|---4-----4-----4-|---0---0---0---0-|---4-----4-----4-|---0---0---0---0-|

|-2-----2-----2---|-----------------|-2-----2-----2---|-----------------|

|-----------------|-0-------2-------|-----------------|-0-------0-------|

 

view cart Secret Of Life websample

The four files are provided in a zipped format.

1. A tab html file.

2. A tab doc file.

3. A .ptb powertab midi file - Powertab software can be downloaded from the introductory Guitar Tab page.

4. A .pdf file which is read in Adobe reader software and shows both tab, notation and the lyrics.

 

Please click on the orange button 'Buy Now' Paypal link alongside & on completion of payment in GB Pound Sterling (£), you will be given an automated download instruction. For more than one song just continue clicking the 'Buy Now' buttons and they are added to the Cart before final purchase.