•Performing James Tayor songs

•Teaching Guitar James Taylor Style

The Songs of James Taylor

Guitar tab -  Only A Dream In Rio

Buy Now (£5.00)

#----------------------------------PLEASE NOTE---------------------------------#

#This file is the author's own work and represents their interpretation of the #

#song. You may only use this file for private study, scholarship, or research. #

#------------------------------------------------------------------------------#

ONLY A DREAM IN RIO

As recorded by James Taylor

(From the 1993 Album LIVE AL CAPOLINEA DI MILANO IN 1993)

Transcribed by Ian EntwistleWords and Music by James Taylor

Arranged by James Taylor

 

Em7/C

x 3 2 0 3 0Em9/C

x 3 2 0 3 2D/F#

2 0 0 2 3 xG

3 2 0 0 3 x

A

x 0 2 2 2 0D5

x x 0 2 3 xG5/F#

2 x 0 0 3 xEm11

0 0 0 0 3 2

G(type 2)

3 x 0 0 0 xG/F#

2 x 0 0 0 xC

x 3 2 0 1 0Bb°7

x 1 2 0 2 0

Em9/B

x 2 4 0 3 0Em9

0 2 4 0 3 0Em9/G

3 x 4 0 3 0D6/F#

2 0 0 2 0 x

E7/Ab

4 x 0 4 0 0A/C#

x 4 2 2 2 0D

x x 0 2 3 2Eb°7

x x 1 2 1 2

Em

x x 2 0 0 3Gmaj7/D

x x 0 0 0 2Asus2

x 0 2 2 0 0

 

Gtr I (E A D G B E) - 'Capo = 1'

 

 

 Q=100

           Em9/C       Em7/C   Em9/C     Em7/C   Em9/C

4/4

           Gtr I

 H    Q.   E    E  E E E E E E E   E E E E E E E E

|-----------2-|-(2)-----0-------2-|-------0-------2-|

|-------------|-------3-------3---|-----3-------3---|

|-------------|-----0-------0-----|---0-------0-----|

|-------------|-------------------|-----------------|

|-------------|--3--------3-------|-3-------3-------|

|-------------|-------------------|-----------------|

 

 

       Em7/C   Em9/C     Em7/C

 E E E E E E E E   E E E E E E E E

|-------0-------2-|-------0----------|

|-----3-------3---|-----3-------3----|

|---0-------0-----|---0-------0------|

|-----------------|------------------|

|-3-------3-------|-3-------3-----3--|

|-----------------|------------------|

 

 

       D/F#    G         A       G         Em7/C

                                    2/4

 E E E E E E E E   E E E E E E E E   E E E E

|-----------------|-----------------|---------|

|-----3-------3---|-----3-------2---|-----3---|

|---0-------2-----|---0-------2-----|---0-----|

|-2-------0-------|-0-------2-------|-0-------|

|-----------------|-------0-------2-|-------3-|

|-------2-------3-|-----------------|---------|

 

 

       D/F#    G         A       G         Em7/C

4/4                                 2/4

 E E E E E E E E   E E E E E E E E   E E E E

|-----------------|-----------------|----------|

|-----3-------3---|-----3-------2---|-----3----|

|---0-------2-----|---0-------2-----|---0------|

|-2-------0-------|-0-------2-------|-0--------|

|-----------------|-------0-------2-|-------3--|

|-------2-------3-|-----------------|----------|

 

 

       D/F#    G         A       G         Em7/C

4/4                                 2/4

 E E E E E E E E   E E E E E E E E   E E E E

|-----------------|-----------------|---------|

|-----3-------3---|-----3-------2---|-----3---|

|---0-------2-----|---0-------2-----|---0-----|

|-2-------0-------|-0-------2-------|-0-------|

|-----------------|-------0-------2-|-------3-|

|-------2-------3-|-----------------|---------|

 

 

       D/F#    G       A

4/4                                       2/4

 E E E E E E E E   E E E E E  E   E   E    +H

|-----------------|-----0--------------0--|-(0)----|

|-----3-------3---|---3---2---------------|--------|

|---0-------2-----|-0--------------2------|--------|

|-2-------0-------|------------2----------|--------|

|-----------------|---------0-(0)-(0)-(0)-|-(0)----|

|-------2-------3-|-----------------------|--------|

view cart

The four files are provided in a zipped format.

1. A tab html file.

2. A tab doc file.

3. A .ptb powertab midi file - Powertab software can be downloaded from the introductory Guitar Tab page.

4. A .pdf file which is read in Adobe reader software and shows both tab, notation and the lyrics.

 

Please click on the orange button 'Buy Now' Paypal link alongside & on completion of payment in GB Pound Sterling (£), you will be given an automated download instruction. For more than one song just continue clicking the 'Buy Now' buttons and they are added to the Cart before final purchase.

Only A Dream In Rio websample