•Performing James Tayor songs

•Teaching Guitar James Taylor Style

The Songs of James Taylor

Guitar tab -  Never Die Young

Buy Now (£5.00)

#----------------------------------PLEASE NOTE---------------------------------#

#This file is the author's own work and represents their interpretation of the #

#song. You may only use this file for private study, scholarship, or research. #

#------------------------------------------------------------------------------#

NEVER DIE YOUNG

As recorded by James Taylor

(From the 2007 Album (ONE MAN BAND))

Transcribed by Ian EntwistleWords and Music by James Taylor

Arranged by James Taylor

 

D/F#

2 x 0 2 3 2G

3 x 0 0 0 xA

x 0 2 2 2 0Bm

x 2 4 4 3 2

Em9(type 2)

0 x 4 0 3 0Em9/G

3 x 4 0 3 0Bb°7

x 1 2 0 2 0A7sus4

x 0 2 0 3 0

Gadd9

3 x 0 2 0 xD5/G

3 0 0 2 3 xG5

3 x 0 0 3 xEm9

0 2 4 0 3 0

Em9/A

x 0 4 0 3 0Em9/B

x 2 4 0 3 0E7/Ab

4 x 0 4 3 0

 

Gtr I (E A D G B E) - 'Capo 2'

 

 

 Q=100

           D/F#              G         A

4/4

           Gtr I

 H    Q.   E   E E E E E E E E   E E E E E E Q

|-------------|-----0-2---------|----------------|

|-------------|---------------0-|-------2--------|

|-----------2-|---2---------2---|-----0-----2----|

|-------------|-0---------0-----|---0---------2--|

|-------------|-----------------|---------0------|

|-------------|---------2-------|-3--------------|

 

 

 Bm              Em9(typeEm9/G A

 E E E E E  E  E E   E E E E E E Q

|-------------------|-----------------|

|-------2h3---------|---0h3-----------|

|-----4------4----0-|-----------------|

|---4-----------4---|-------4---2-----|

|-2-------2-(2)-----|-------------0---|

|-------------------|-0-------3-------|

 

 

 D/F#          G         Bb°7       Bm              Em9(typeEm9/G A7sus4

 E E E E E E E E   E E E E E E Q    E E E E E  E  E E   E E E E E E E E

|-----0-2---------|----------------|-------------------|------------------|

|---------------0-|-------2--------|-------2h3---------|---0h3---------3--|

|---2---------2---|-----0-----0----|-----4------4----0-|-------------0----|

|-0---------0-----|---0---------2--|---4-----------4---|-------4---2------|

|-----------------|---------1------|-2-------2-(2)-----|------------------|

|---------2-------|-3--------------|-------------------|-0-------3--------|

 

 

 A     Bm        Gadd9   D5/G      Gadd9

 E E E Q  E Q    E E E E E E E E   E E E E E E Q

|-0-----2-------|-----------------|----------------|

|---2------3----|-------0-------3-|-------0--------|

|-----2------4--|-----2-------2---|-----2-------2--|

|---------------|---0-------0-----|---0-------0----|

|-0-----2-------|-----------------|----------------|

|---------------|-3-------3-------|-3-------3------|

 

view cart

The four files are provided in a zipped format.

1. A tab html file.

2. A tab doc file.

3. A .ptb powertab midi file - Powertab software can be downloaded from the introductory Guitar Tab page.

4. A .pdf file which is read in Adobe reader software and shows both tab, notation and the lyrics.

 

Please click on the orange button 'Buy Now' Paypal link alongside & on completion of payment in GB Pound Sterling (£), you will be given an automated download instruction. For more than one song just continue clicking the 'Buy Now' buttons and they are added to the Cart before final purchase.

Never Die Young websample