•Performing James Tayor songs

•Teaching Guitar James Taylor Style

The Songs of James Taylor

Guitar tab -  Mexico

Buy Now (5.00)

#----------------------------------PLEASE NOTE---------------------------------#

#This file is the author's own work and represents their interpretation of the #

#song. You may only use this file for private study, scholarship, or research. #

#------------------------------------------------------------------------------#

MEXICO

Transcribed by Ian Entwistle

Level: Intermediate

Written by James Taylor

 

D

x x 0 2 3 2A

x 0 2 2 2 0Bm

x 2 4 4 3 2E7sus4

0 2 0 2 0 0

Cadd9

x 3 2 0 3 0G(type 2)

3 2 0 0 3 xG5/C

x 3 0 0 3 xG

3 2 0 0 0 3

E

0 x x 4 5 4C#m

x 4 6 6 5 4B

x 2 4 4 4 2Bm7

x 2 4 2 3 2

E(type 2)

0 2 2 1 0 0G(type 3)

3 2 0 0 3 3C#m7

x 4 6 4 5 4

 

Gtr I (E A D G B E) - 'Untitled'

 Q=100

 D     A   D   Bm        A               E7sus4

4/4                                 2/4

 Gtr I

 E E E E E E E E   E E E E E E E E   +E  E  E  E

|-2-----0---2-----|-------0-------0-|-(0)---------|

|---3-------------|---3---------2---|-------------|

|-----2---2---2---|-----------2-----|--------2----|

|-0---------0-----|-4---4-----------|-------------|

|-------0-------2-|---------0-------|-----2-(2)---|

|-----------------|-----------------|-----------0-|

 

 

         Bm          Cadd9   G(type 2)

4/4

 E E  E  E E E E E   E E E E E E E E

|-3-2-(2)-------0-0-|-------------------|

|---------3---------|-----3-3-----3-----|

|------0------4-----|---0-------0-------|

|-----------4-------|-------------------|

|---------2---------|-3-------------2---|

|-------------------|---------3---------|

 

 

   G5/CD         A   D   Bm        A

2/4       4/4

 E E E E   E E E E E E E E   E E E E E E E E

|---------|-2-----0---2-----|-------0-0-----0-|

|---------|---3-------------|---3---------2---|

|-0---0---|-----2---2---2---|-----------2-----|

|-------0-|-----------0-----|-4---4-----------|

|---3-----|-------0-------2-|---------0-------|

|---------|-----------------|-----------------|

 

 

     E7sus4            Bm

2/4           4/4

 +E  E  E  E   E E  E  E E E E E

|-(0)---------|-3-2-(2)-------0-0-|

|-------------|---------3---------|

|--------2----|------0------4-----|

|-------------|-----------4-------|

|-----2-(2)---|---------2---------|

|-----------0-|-------------------|

 

 

 G(type 2)

                  2/4

 E E E E E E E E   +Q   +Q

|-----------------|-----------||

|-----3-3-------3-|-(3)--(3)--||

|---0---------0---|-----------||

|-----------0-----|-----------||

|-3---------------|-----------||

|---------3-------|-----------||

 

 

 G     D         A     G         G     D         A     G

4/4

 E E E Q  E Q    E E E Q  E Q    E E E Q  E Q    E E E Q  E Q

|-3-----2-------|---------------|-3-----2-------|---------------|

|---0------3----|-2-----0-------|---0------3----|-2-----0-------|

|-----0------2--|---2------0----|-----0------2--|---2------0----|

|-------0-------|-----2------0--|-------0-------|-----2------0--|

|---------------|-0-------------|---------------|-0-------------|

|-3-------------|-------3-------|-3-------------|-------3-------|

view cart

The four files are provided in a zipped format.

1. A tab html file.

2. A tab doc file.

3. A .ptb powertab midi file - Powertab software can be downloaded from the introductory Guitar Tab page.

4. A .pdf file which is read in Adobe reader software and shows both tab, notation and the lyrics.

 

Please click on the orange button 'Buy Now' Paypal link alongside & on completion of payment in GB Pound Sterling (£), you will be given an automated download instruction. For more than one song just continue clicking the 'Buy Now' buttons and they are added to the Cart before final purchase.

Mexico websample