•Performing James Tayor songs

•Teaching Guitar James Taylor Style

The Songs of James Taylor

Guitar tab -  Long Ago And Far Away

Buy Now (£5.00)

 

#----------------------------------PLEASE NOTE---------------------------------#

#This file is the author's own work and represents their interpretation of the #

#song. You may only use this file for private study, scholarship, or research. #

#------------------------------------------------------------------------------#

LONG AGO AND FAR AWAY (JAMES TAYLOR)

Transcribed by Ian Entwistle

 

 

Level: Advanced

 

 

Written by James Taylor

 

 

Bm

x 2 4 4 3 2

Bb+/B

x 2 4 3 3 2

Bm7

x 2 4 2 3 2

Bm7/E

0 2 4 2 3 2

Amaj7

x 0 2 1 2 0

Dmaj7

x x 0 2 2 2

C#m

x 4 6 6 5 4

C+/C#

x 4 6 5 5 4

C#m7

x 4 6 4 5 4

F#m7

2 x 2 2 2 x

E/A

x 0 2 1 0 0

Bm11/E

0 2 0 2 2 0

 

Gtr I (E A D G B E) - 'Guitar'

 

 Q=99

 Bm      Bb+/B     Bm7     Bm7/E     Amaj7             Dmaj7

4/4

 Gtr I

 E E E E E E E E   E E E E E E E E   E E E E E E E E   E E E E E E E E

|-----2-------2---|-----2-------2---|-----0-----0-----|-------2---------|

|---3-------3-----|---3-------3-----|-----2-----2-----|-----2-----2-----|

|-4-------3-------|-2-------2-------|---1-----1-----1-|---2-----2-----0-|

|-----------------|-----------------|-----------------|-0-----0-----0---|

|-2-----2-2-----2-|-2-----2---------|-0-----0-----0---|-----------------|

|-----------------|---------0-----0-|-----------------|-----------------|

 

 

 C#m     C+/C#     C#m7    F#m7      Bm7               Bm7/E

 E E E E E E E E   E E E E E E E E   E E E E E E E E   E E E E E E Q

|-----------------|-----------------|-----2-----2-----|-2---------2-----|

|-----5-------5---|-----5-------2---|-----3-----3-----|-3---3-----3-----|

|-----6-------5---|-----4-------2---|---2-----2-----2-|---2-----2-------|

|---6-------6---6-|---6-------2-----|-----------------|-----------------|

|-4-----4-4-------|-4-----4---------|-2-----2-----2---|-----------------|

|-----------------|---------2-----2-|-----------------|-0-----0-----0---|

 

 

 Bm      Bb+/B     Bm7     Bm7/E     Amaj7             Dmaj7

4/4

 E E E E E E E E   E E E E E E E E   E E E E E E E E   E E E E E E E E

|-----2-------2---|-----2-------2---|-----0-----0-----|-------2---------|

|---3-------3-----|---3-------3-----|-----2-----2-----|-----2-----2-----|

|-4-------3-------|-2-------2-------|---1-----1-----1-|---2-----2-----0-|

|-----------------|-----------------|-----------------|-0-----0-----0---|

|-2-----2-2-----2-|-2-----2---------|-0-----0-----0---|-----------------|

|-----------------|---------0-----0-|-----------------|-----------------|

 

 

 C#m     C+/C#     C#m7    F#m7      Bm7               Bm7/E

 E E E E E E E E   E E E E E E E E   E E E E E E E E   E E E E E E Q

|-----------------|-----------------|-----2-----2-----|-2---------2-----|

|-----5-------5---|-----5-------2---|-----3-----3-----|-3---3-----3-----|

|-----6-------5---|-----4-------2---|---2-----2-----2-|---2-----2-------|

|---6-------6---6-|---6-------2-----|-----------------|-----------------|

|-4-----4-4-------|-4-----4---------|-2-----2-----2---|-----------------|

|-----------------|---------2-----2-|-----------------|-0-----0-----0---|

 

view cart

The four files are provided in a zipped format.

1. A tab html file.

2. A tab doc file.

3. A .ptb powertab midi file - Powertab software can be downloaded from the introductory Guitar Tab page.

4. A .pdf file which is read in Adobe reader software and shows both tab, notation and the lyrics.

 

Please click on the orange button 'Buy Now' Paypal link alongside & on completion of payment in GB Pound Sterling (£), you will be given an automated download instruction. For more than one song just continue clicking the 'Buy Now' buttons and they are added to the Cart before final purchase.

Long Ago And Far Away websample