•Performing James Tayor songs

•Teaching Guitar James Taylor Style

The Songs of James Taylor

Guitar tab -  Isn't It Nice To Be Home Again

Buy Now (£5.00)

Powertab demo shown below (I have not got round to loadiing the actual 'Isn't It Nice To Be Home Again' powertab clip yet!).

 

#----------------------------------PLEASE NOTE---------------------------------#

#This file is the author's own work and represents their interpretation of the #

#song. You may only use this file for private study, scholarship, or research. #

#------------------------------------------------------------------------------#

ISN'T IT NICE TO BE HOME AGAIN

Transcribed by Ian Entwistle

Level: Advanced

Written by Written by James Taylor

 

Em9

0 x 4 0 3 0A

x 0 2 2 2 0Em7

0 2 0 0 0 0C#m7

x 4 6 4 5 4

C#7sus2

x 4 6 4 4 4F#m7

2 4 2 2 2 2B7sus4/F#

2 2 4 2 5 2B7

x 2 4 2 4 2

E7sus4

0 2 0 2 3 0E7

0 2 0 1 3 0Dmaj7

x x 0 2 2 2Bm7/E

0 2 4 2 3 5

Amaj7

x 0 2 1 2 0

 

Gtr I (E A D G B E) - 'No Capo'

 

 

 Q=115

 Em9

4/4

 Gtr I

 E E E E E E E E   E E E E E E E E   E E E E E E E E   E E E E E E Q

|-----------------|-----------------|-----------------|----------------|

|-------3---------|-------3---------|-------3---------|---3------------|

|-----0-----0-----|---0-------0-----|---0-------0-----|-------0--------|

|---4-----------4-|---------------4-|---------------4-|-----------4----|

|-----------------|-----------------|-----------------|----------------|

|-0-------0---0---|-0---0---0---0---|-0---0---0---0---|-0---0---0---0--|

 

 

 A             Em9                            A

 Q  Q  Q  Q    H.      Q    H.      Q    H    H

|-------------|------------|------------|-----------|

|-------2-----|-3----------|-3----------|-3----2----|

|-------2-----|-0----------|-0----------|-0----2----|

|----2-----2--|-4----------|-4----------|-4----2----|

|-0-----------|------------|------------|------0----|

|-------------|-0-------0--|---------0--|-----------|

 

 

 Em7          A             Em9

 H    Q  Q    Q  Q  Q  Q    H.      Q    H.      Q

|------------|-------------|------------|-------------|

|-0----------|-------2-----|-3----------|-3-----------|

|-0----------|-------2-----|-0----------|-0-----------|

|-0----------|----2-----2--|-4----------|-4-----------|

|------------|-0-----------|------------|-------------|

|-0----0--0--|-------------|-0-------0--|---------0---|

 

 

 

view cart

The four files are provided in a zipped format.

1. A tab html file.

2. A tab doc file.

3. A .ptb powertab midi file - Powertab software can be downloaded from the introductory Guitar Tab page.

4. A .pdf file which is read in Adobe reader software and shows both tab, notation and the lyrics.

 

Please click on the orange button 'Buy Now' Paypal link alongside & on completion of payment in GB Pound Sterling (£), you will be given an automated download instruction. For more than one song just continue clicking the 'Buy Now' buttons and they are added to the Cart before final purchase.

Isn't It Nice To Be Home Again clip