•Performing James Tayor songs

•Teaching Guitar James Taylor Style

The Songs of James Taylor

Guitar tab -  Fire & Rain

#----------------------------------PLEASE NOTE---------------------------------#

#This file is the author's own work and represents their interpretation of the #

#song. You may only use this file for private study, scholarship, or research. #

#------------------------------------------------------------------------------#

FIRE AND RAIN

transcribed by Ian Entwistle

Level: Intermediate

Written by James Taylor

 

AII

x 0 x 6 5 5 G/E

0 x x 4 3 3 D

x x 0 2 3 2 Dsus2

x x 0 2 3 0

A

x 0 2 2 2 0 Asus4

x 0 2 2 3 0 Asus2

x 0 2 2 0 0 E

0 2 2 1 0 0

Gmaj7

3 2 0 0 3 2 D/B

x 2 0 2 3 2 D/E

0 x 0 2 3 2 G

3 2 0 0 0 3

Dadd6/F#

2 x 0 2 0 x Asus2add11/E

0 0 0 2 0 0 Emadd11

0 0 2 0 0 0 Em7

0 2 0 0 0 0

G/A

x 0 x 4 3 3 D/A

x 0 x 2 3 2 E/A

x 0 2 1 0 0 Gmaj7sus2/A

x 0 x 0 3 2

 

Gtr I (E A D G B E) - 'Capo = 3'

 Q=147

   AII                    G/E               D

4/4

 Gtr I

 E  E   Q    Q    Q     E  E   Q    Q    E  E

|--------5-------------|--------3--------------|

|-------------5--------|-------------3---------|

|-4-/6-------------6---|-6--4\------------4----|

|----------------------|---------------------0-|

|-0-(0)-(0)--(0)--(0)--|-----------------------|

|----------------------|-0-(0)-(0)--(0)--(0)---|

 

 

     DsuD2 A             AsusA   Asus2

 E E Q  Q  Q    +Q   E E  E   E   E  E

|-0h2-0--2--0--|-(0)-------0---0---0----|

|-3---3--3--2--|-(2)-------3---2---0----|

|-2------------|----------------------2-|

|--------------|------------------------|

|-----------0--|-(0)--0-0-(0)-(0)-(0)---|

|--------------|------------------------|

 

 

   A                E                 Gmaj7

 E  E   Q   Q  Q    Q   Q    Q   Q    E E E E E E E E   E E E E E E Q

|-0----------------|-----------------|---------------2-|-----------------|

|-0h=2-------2-----|-0---------------|-------3---------|---3-------3-----|

|--------2---------|----------1------|-----0-----------|-------0---------|

|------------------|-----2-----------|---0-------0-----|-----------------|

|-0-(0)-(0)-----0--|-----------------|-----------------|-----------------|

|------------------|-0--(0)--(0)--0--|-3-------3---3---|-3---3---3---3---|

 

 

 AII                 G/E                 D             Asus2      A     Asus2

 Q   Q    Q    Q     Q   Q    Q   +Q     Q  Q  Q  Q    Q   E   E   E  E Q

|----------5--------|-3-----------------|-------2-----|---------0--------0---|

Some viewers and prospective purchasers are concerned over complexity of tab/notation. On request I will send out a handwritten pdf of  chord diagrams, with timing for phrasing of the words for 'Fire&Rain'. Please go to the contact page if you would like the free pdf.

Buy Now (£5.00) view cart

The four files are provided in a zipped format.

1. A tab html file.

2. A tab doc file.

3. A .ptb powertab midi file - Powertab software can be downloaded from the introductory Guitar Tab page.

4. A .pdf file which is read in Adobe reader software and shows both tab, notation and the lyrics.

 

Please click on the orange button 'Buy Now' Paypal link alongside & on completion of payment in GB Pound Sterling (£), you will be given an automated download instruction. For more than one song just continue clicking the 'Buy Now' buttons and they are added to the Cart before final purchase.

Fire& Rain websample