•Performing James Tayor songs

•Teaching Guitar James Taylor Style

The Songs of James Taylor

Guitar tab -  Enough To Be On Your Way

#----------------------------------PLEASE NOTE---------------------------------#

#This file is the author's own work and represents their interpretation of the #

#song. You may only use this file for private study, scholarship, or research. #

#------------------------------------------------------------------------------#

ENOUGH TO BE ON YOUR WAY

Transcribed By Ian Entwistle

Level: Advanced

Written by James Taylor

 

Gadd9

3 x 0 2 0 3 Aadd9/B

x 2 2 2 2 x A

x 0 2 2 2 0 F#m7

2 4 2 2 2 2

Bm7

x 2 4 2 3 2 Em6add9

0 2 4 0 2 x Dadd9/A

x 0 4 2 3 0 Asus2

x 0 2 2 0 0

A7sus4

x 0 2 0 3 0 D

x x 0 2 3 2 G

3 2 0 0 0 3 F#m7/B

x 2 4 2 2 0

Em7

0 2 2 0 3 0 A/D

x x 0 2 2 0 Bm

x 2 4 4 3 2 C#m7

x 4 6 4 5 x

G#m7

4 6 4 4 4 4 Aadd9

x 0 2 4 2 0 Emaj7sus2

0 2 2 4 4 2 B

x 2 4 4 4 2

B/C#

x 4 4 4 4 x

 

Gtr I (E A D G B E) - 'Capo 3'

 Q=95

 Gadd9    Aadd9/B              Gadd9    Aadd9/B

4/4

 Gtr I

 E E E Q  E E E   +W           E E E Q  E E E   +W

|----------------|------------|----------------|--------|

|-------0------2-|-(2)--------|-------0------2-|-(2)----|

|-----2--------2-|-(2)--------|-----2--------2-|-(2)----|

|---0--------2---|------------|---0--------2---|--------|

|----------2-----|------------|----------2-----|--------|

|-3--------------|------------|-3--------------|--------|

 

 

 Gadd9           Aadd9/B         Gadd9           Aadd9/B

 E E E Q  Q.     E E E Q  Q.     E E E Q  Q.     E E E E +H

|---------------|---------------|---------------|----------------|

|-------0-------|-------2-------|-------0-------|-------2-(2)----|

|-----2----2----|-----2----2----|-----2----2----|-----2----------|

|---0-----------|---2-----------|---0-----------|---2------------|

|---------------|-2-------------|---------------|-2--------------|

|-3-------------|---------------|-3-------------|----------------|

 

 

 Gadd9           A       F#m7      Em6add9           A   Dadd9/A

 E E E Q  Q.     E E E E E E E E   E E E E E E E E   E E E  E  E E Q

|---------------|-----------------|-----------------|------------------|

|-------0-------|-----2-------2---|-----3-------3---|-----3p=2------2--|

|-----2----2----|-----2-------2---|-----0-------0---|-----2-(2)-----2--|

|---0-----------|---2---2---2---2-|---4---4---4---4-|---2-4p=2----2----|

|---------------|-0---------------|-2---------------|-0---------0------|

|-3-------------|---------2-------|---------0-------|------------------|

Buy Now (song only) (£5.00) view cart

The four files are provided in a zipped format.

1. A tab html file.

2. A tab doc file.

3. A .ptb powertab midi file - Powertab software can be downloaded from the introductory Guitar Tab page.

4. A .pdf file which is read in Adobe reader software and shows both tab, notation and the lyrics.

 

For the song only, please click on the orange button 'Buy Now (song only)' Paypal link alongside & on completion of payment in GB Pound Sterling (£), you will be given an automated download instruction. For more than one song just continue clicking the 'Buy Now' buttons and they are added to the Cart before final purchase.

 

I have recently had several requests to tab out James Taylor's own and totally brilliant lesson on the 'Etude'/Introduction to this song. I have helped people from other countries tab this song and have now completed my own! This took me a long time as there are 20 chord shapes in this short piece of intricate fingerstyle guitar playing. If you wish to obtain this please go to the 'Buy Now  (Intro)' button alongside. The same discounts apply for multibuy of tabs.

Enough To Be On Your Way websample Buy Now (Intro) (£5.00)