•Performing James Tayor songs

•Teaching Guitar James Taylor Style

The Songs of James Taylor

Guitar tab -  Country Road

Buy Now (£5.00)

#----------------------------------PLEASE NOTE---------------------------------#

#This file is the author's own work and represents their interpretation of the #

#song. You may only use this file for private study, scholarship, or research. #

#------------------------------------------------------------------------------#

COUNTRY ROAD

As recorded by James Taylor

Transcribed by Ian EntwistleWords and Music by James Taylor

Arranged by James Taylor

 

D

0 x x 2 3 2G/D

0 x x 4 3 3G

5 x x 4 3 3C

x 3 x 0 1 0

C/B

x 2 x 0 1 0C/A

x 0 x 0 1 0C/D

0 x 2 x 1 xEm7/B

x 2 2 0 3 x

A

x 0 2 2 2 0Bm

x 2 x 4 3 2

 

Gtr I (D A D G B E) - 'Guitar'

 Q=130

                 D                 D

4/4

   Gtr I

 H    E  E Q     E  E  Q  Q  E E   E E E E E E E E

|--------------||-0h=2------------|-3-2p0---0h2-----|

|--------------||-3---------------|-3-3-----3-------|

|--------------||-2---------------|-2-2---2-------2-|

|-----------0--||-----------------|-----------------|

|------0-h2----||-----------------|-----------------|

|--------------||-0-(0)-0--0--0-0-|-0---0---0---0---|

 

 

 C/D        G/D             G

 E E E E Q  Q    +E  Q  E E  E  E  E

|-0-0---0----3--|-(3)---------3-------|

|-1-1---1----3--|-(3)---------3-------|

|------------4--|-(4)---------4-------|

|---------------|---------------------|

|---------------|----------------0----|

|-0---0---0--0--|-(0)-0--0-5-(5)----0-|

 

 

 D                   D                 C/D   G/D  D

  E   E  Q  Q  E E   E E E E E E E E   E E E E Q  Q    +Q   E E  E E Q

|--0h==2------------|-3-2p0---0h2-----|-0-0---3----2--|------------------|

|--3----------------|-3-3-----3-------|-1-1---3----3--|------------------|

|--2----------------|-2-2---2-------2-|-------4----2--|------------------|

|-------------------|-----------------|---------------|----------h0---0--|

|-------------------|-----------------|---------------|------0h2----2----|

|-(0)-(0)-0--0--0-0-|-0---0---0---0---|-0---0---5--0--|-(0)--------------|

Insert body text here ...

view cart

The four files are provided in a zipped format.

1. A tab html file.

2. A tab doc file.

3. A .ptb powertab midi file - Powertab software can be downloaded from the introductory Guitar Tab page.

4. A .pdf file which is read in Adobe reader software and shows both tab, notation and the lyrics.

 

Please click on the orange button 'Buy Now' Paypal link alongside & on completion of payment in GB Pound Sterling (£), you will be given an automated download instruction. For more than one song just continue clicking the 'Buy Now' buttons and they are added to the Cart before final purchase.

Country Road websample