•Performing James Tayor songs

•Teaching Guitar James Taylor Style

The Songs of James Taylor

Guitar tab -  Copperline

Buy Now (£5.00)

Powertab demo shown below (I have not got round to loading the Copperline clip yet!).

#----------------------------------PLEASE NOTE---------------------------------#

#This file is the author's own work and represents their interpretation of the #

#song. You may only use this file for private study, scholarship, or research. #

#------------------------------------------------------------------------------#

COPPERLINE

transcribed by Ian Entwistle

Level: Advanced

Written by James Taylor

 

D/G

3 0 0 2 3 2D

x x 0 2 3 2Dsus2/B

x 2 0 2 3 0Em7/G

3 2 0 0 3 0

A7sus4

x 0 2 0 3 0Em

0 2 2 0 0 xBm7/F#

2 x 0 2 0 xG

3 2 0 0 0 x

A

x 0 2 2 2 0Bm

x 2 4 4 3 2Gmaj7

3 2 0 0 3 2

 

Gtr I (E A D G B E) - 'Capo 2'

 

 

         D/G                                    D/G

4/4

         Gtr I

 H.      E  E     Q    Q    Q    Q     Q  Q  Q  E  E     Q    Q    Q    Q

|------------2--|-(2)--(2)--(2)--(2)--|----------------|---------------------|

|---------------|---------------------|-------------3--|-(3)--(3)--(3)--(3)--|

|---------2-(2)-|-(2)--(2)--(2)--(2)--|----------2-(2)-|-(2)--(2)--(2)--(2)--|

|---------------|---------------------|----------------|---------------------|

|---------------|---------------------|----------------|--0----0----0----0---|

|---------------|--3----3----3----3---|-3--3--3--------|---------------------|

 

 

          D/G                    D/G

 Q  Q  Q  E  E     Q    Q    Q   E  E     Q    Q    Q    Q

|-------------2--|-(2)------------------|---------------------|

|----------------|-------------------3--|-(3)--(3)--(3)--(3)--|

|----------2-(2)-|-(2)--(2)--(2)--2-(2)-|-(2)--(2)--(2)--(2)--|

|----------------|----------------------|---------------------|

|-0--0--0--------|----------------------|--0----0----0----0---|

|----------------|--3----3----3---------|---------------------|

 

 

 D     Dsus2/B     D     Dsus2/B     D     Dsus2/B     D     Dsus2/B

 E E E E E E E E   E E E E E E E E   E E E E E E E E   E E E E E E E E

|-----2-0-----0-0h|=2---2-0-----0-0h|=2---2-0-----0-0h|=2---2-0-----0-0h=|

|-----3-3-----3-3-|-----3-3-----3-3-|-----3-3-----3-3-|-----3-3-----3-3--|

|---2-2-2---2-2-2-|---2-2-2---2-2-2-|---2-2-2---2-2-2-|---2-2-2---2-2-2--|

|-0---------------|-0---------------|-0---------------|-0----------------|

|---------2-------|---------2-------|---------2-------|---------2--------|

|-----------------|-----------------|-----------------|------------------|

 

 

 D     Dsus2/B     D     Dsus2/B     D     Dsus2/B     Em7/G   A7sus4

 E E E E E E E E   E E E E E E E E   E E E E E E E E   E E E E E E E E

|-2---2-0-----0-0h|=2---2-0-----0-0h|=2---2-0-----0-0-|-----0-0-----0-0h=|

|-----3-3-----3-3-|-----3-3-----3-3-|-----3-3-----3-3-|-----3-3-----3-3--|

|---2-2-2---2-2-2-|---2-2-2---2-2-2-|---2-2-2---2-2-2-|---0-0-0---0-0-0--|

|-0---------------|-0---------------|-0---------------|-----0-0-----2-2--|

|---------2-------|---------2-------|---------2-------|---------0--------|

|-----------------|-----------------|-----------------|-3----------------|

 

 

 D     Dsus2/B     D     Dsus2/B     Em    Bm7/F#  G

 E E E E E E E E   E E E E E E E E   Q  Q  Q  Q    Q  Q  E E Q

|-2---2-0-----0-0h|=2---2-0-----0-0-|-------------|--------------|

|-----3-3-----3-3-|-----3-3-----3-3-|-0-----0-----|-0------------|

|---2-2-2---2-2-2-|---2-2-2---2-2-2-|-0-----2-----|-0-----2h4-2--|

|-0---------------|-0---------------|----2-----0--|----0---------|

|---------2-------|---------2-------|-------------|--------------|

|-----------------|-----------------|-0-----2-----|-3------------|

 

view cart

The four files are provided in a zipped format.

1. A tab html file.

2. A tab doc file.

3. A .ptb powertab midi file - Powertab software can be downloaded from the introductory Guitar Tab page.

4. A .pdf file which is read in Adobe reader software and shows both tab, notation and the lyrics.

 

Please click on the orange button 'Buy Now' Paypal link alongside & on completion of payment in GB Pound Sterling (£), you will be given an automated download instruction. For more than one song just continue clicking the 'Buy Now' buttons and they are added to the Cart before final purchase.

Copperline websample