•Performing James Tayor songs

•Teaching Guitar James Taylor Style

The Songs of James Taylor

Guitar tab -  Carolina In My Mind

#----------------------------------PLEASE NOTE---------------------------------#

#This file is the author's own work and represents their interpretation of the #

#song. You may only use this file for private study, scholarship, or research. #

#------------------------------------------------------------------------------#

CAROLINA IN MY MIND

As recorded by James Taylor

Transcribed by Ian Entwistle Words and Music by James Taylor

Arranged by James Taylor

 

D

x x 0 2 3 2 G

3 2 0 0 3 3 Em7

0 2 2 0 3 3 Bm

x 2 4 4 3 2

A

x 0 2 2 2 0 G(type 2)

3 2 0 0 0 3 Em7(type 2)

0 2 2 0 3 0 A7sus4

x 0 2 0 3 0

Gmaj7/B

x 2 0 0 3 2 F#m7

2 4 2 2 2 2 Em

0 2 2 0 0 0 C

0 3 2 0 1 0

Bb°7

x 1 2 0 2 0 A7sus4(type 2)

x 0 2 0 3 3 D/C#

x 4 0 2 3 2 D/A

x 0 0 2 3 2

G/F#

2 2 0 0 3 3 A7

x 0 2 0 2 0 D/F#

2 0 0 2 3 2 E7sus4

0 2 0 2 3 0

E7

0 2 0 1 3 0 Aadd11/B

x 2 0 2 2 0 Em9

0 x 4 0 3 x

 

Gtr I (E A D G B E) - 'Capo 2nd fret'

 Q=120

 D                    G      G/F#     Em7             A7sus4(type 2)

4/4

 Gtr I

 E   E E E E E E Q    Q  E E Q  E E   Q  E E E E Q    Q  E E E E Q

|---|-0h2------------|-3------3------|-3-------------|-3-------------|

|---|-------3--------|-3------3------|-3--------3----|-3--------3----|

|-2-|-----2-----2----|------0------0-|------0--------|------0--------|

|---|-0-------0---0--|----0------0---|----2-------2--|----2-------2--|

|---|----------------|---------------|---------------|-0------0------|

|---|----------------|-3------2------|-0------0------|---------------|

 

 

 D                G       Em7      A                 A

 E E E E E E Q    E E E E E E Q    E E E E E E E E   E E E E E E Q

|-------2--------|----------------|-------0---------|-------0---------|

|---3------------|-------3--------|-----------0-----|-0h2-------2-----|

|-----2-----2----|---0-------0----|---2-----------2-|-----------------|

|-0-----------0--|-----0-------2--|-----2-------2---|-----2-------2---|

|----------------|----------------|-0-------0-------|-0-------0-------|

|---------2------|-3-------0------|-----------------|-----------------|

 

 

 G(type 2)        A       Aadd11/B Em7(type 2)      A

 E E E E E E Q    E E E E E E Q    E E E E E E Q    E E E E E E Q

|-----------3----|-------0-----0--|-----------0----|-------0---------|

|-------0--------|---2---------2--|-------3--------|-----------2-----|

|---0-----0------|-----------2-2--|---0-----0------|---2-------------|

|-----0-------0--|-----2----------|-----2-------2--|-----2-------2---|

|----------------|-0-------2------|----------------|-0-------0-------|

|-3--------------|----------------|-0--------------|-----------------|

Some students and prospective purchasers are concerned over complexity of tab/notation. On request I will send out a handwritten pdf of  chord diagrams, with timing for phrasing of the words for 'Carolina In My Mind'. Please go to the contact page if you would like the free pdf.

Buy Now (£5.00) view cart

The four files are provided in a zipped format.

1. A tab html file.

2. A tab doc file.

3. A .ptb powertab midi file - Powertab software can be downloaded from the introductory Guitar Tab page.

4. A .pdf file which is read in Adobe reader software and shows both tab, notation and the lyrics.

 

Please click on the orange button 'Buy Now' Paypal link alongside & on completion of payment in GB Pound Sterling (£), you will be given an automated download instruction. For more than one song just continue clicking the 'Buy Now' buttons and they are added to the Cart before final purchase.

Carolina In My Mind websample