•Performing James Tayor songs

•Teaching Guitar James Taylor Style

The Songs of James Taylor

Guitar tab -  Blossom

#----------------------------------PLEASE NOTE---------------------------------#

#This file is the author's own work and represents their interpretation of the #

#song. You may only use this file for private study, scholarship, or research. #

#------------------------------------------------------------------------------#

BLOSSOM (GREATEST HITS VERSION)

transcribed by Ian Entwistle

Level: Advanced

Written by James Taylor

 

D

x x 0 2 3 2Em7/C

x 3 0 0 3 0Em7/B

x 2 0 0 3 0Em7/A

x 0 0 0 3 0

Em7(type 3)

0 2 0 0 3 0Em7/F#

2 x 0 0 3 0Em7/G

3 x 0 0 3 0Em7(type 2)

0 2 2 0 3 3

A7sus4

x 0 2 0 3 0A7sus4(type 2)

x 0 2 0 3 3G

3 2 0 0 3 3G5/F#

2 x 0 0 3 3

Em7

0 2 2 0 3 0A

x 0 2 2 2 0Gmaj7/B

x 2 4 0 3 xG(type 2)

3 2 0 0 0 3

Dadd6/F#

2 x 0 2 0 xE7sus4

0 2 0 2 0 0E7

0 2 0 1 0 0A7

x 0 2 0 2 0

Fmaj7

1 3 3 2 1 0

 

Gtr I (E A D G B E) - 'Capo1'

 

 

 Q=100

 D       Em7/Em7/B Em7 Em7/Em7/Em7/A D       Em7/C

4/4

 Gtr I

 E E E E E E E E   E E E E E E E E   E E E E E E E E

|-2-3-2---0-------|-0-------0-------|-2---------------|

|-------3---3---3-|---3---3---3---3-|-----3-------3---|

|-------------0---|-----0-------0---|---2-------0-----|

|-0---------------|-----------------|-0-----0---------|

|---------3---2---|-------------0---|---------3-----3-|

|-----------------|-0---2---3-------|-----------------|

 

 

 Em7/B   Em7/A     Em7/G   Em7/F#    Em7(typeA7sus4(type 2)

 E E E E E E E E   E E E E E E E E   E E E E E E E E

|-----------------|-----------------|-3-------3-------|

|-----3-------3---|-----3-------3---|-----3-------3---|

|---0-------0-----|---0-------0-----|---0-------0-----|

|-----------------|-----------------|-----------------|

|-2-----2-0-----0-|-----------------|---------0-----0-|

|-----------------|-3-----3-2-----2-|-0-----0---------|

 

 

 D       Em7/C     Em7/B   Em7/A     Em7/G   G5/F#     Em7     A7sus4

 E E E E E E E E   E E E E E E E E   E E E E E E E E   E E E E E E E E

|-0h2-----0-------|-0-------0-------|---------3-------|-0-------0--------|

|-----3-------3---|-----3-------3---|-----3-------3---|-----3-------3----|

|---2---2---0---0-|---0---0---0---0-|---0---0---0---0-|---0---0---0---0--|

|-0---------------|-----------------|-----------------|------------------|

|---------3-------|-2-------0-------|-----------------|---------0--------|

|-----------------|-----------------|-3-------2-------|-0----------------|

Buy Now (£5.00)

The four files are provided in a zipped format.

1. A tab html file.

2. A tab doc file.

3. A .ptb powertab midi file - Powertab software can be downloaded from the introductory Guitar Tab page.

4. A .pdf file which is read in Adobe reader software and shows both tab, notation and the lyrics.

 

Please click on the orange button 'Buy Now' Paypal link alongside & on completion of payment in GB Pound Sterling (£), you will be given an automated download instruction. For more than one song just continue clicking the 'Buy Now' buttons and they are added to the Cart before final purchase.

Blossom websample view cart

Powertab demo shown below (I have not got round to loading the Blossom clip yet!).