•Performing James Tayor songs

•Teaching Guitar James Taylor Style

The Songs of James Taylor

Guitar tab -  Anywhere Like Heaven

#----------------------------------PLEASE NOTE---------------------------------#

#This file is the author's own work and represents their interpretation of the #

#song. You may only use this file for private study, scholarship, or research. #

#------------------------------------------------------------------------------#

ANYWHERE LIKE HEAVEN

transcribed by Ian Entwistle

Level: Advanced

Written by James Taylor

 

G

3 2 0 0 0 3 G5/F#

2 x 0 0 3 3 G5

3 x 0 0 3 3 Em7

0 x x 0 3 3

G5/F

x x 3 0 3 3 C

x 3 2 0 1 0 Am7

x 0 2 0 1 0 D

x x 0 2 3 2

Cadd9

x 3 x 0 3 0 G6/B

x 2 0 0 3 0 Em7/A

x 0 x 0 3 0 A7sus4

x 0 2 0 3 0

A7

x 0 2 0 2 0 Am

x 0 2 2 1 0 F

1 3 3 2 1 1 Am7(type 2)

x 0 2 0 1 0

Bm

x 2 4 4 3 2

 

Gtr I (E A D G B E) - 'Untitled'

 Q=95

 G                 C                 Am

4/4

 Gtr I

 E E E E E E E E   E E E E E E E E   E E E E  E  E Q

|-----3-------3---|-----0-----0-----|----------0-------|

|-----0-------0---|-----1-----1-----|-----0h1-(1)---1--|

|---0-------0-----|---0-----0-----0-|---2---------2----|

|-----------------|-----------------|------------------|

|---------2-----2-|-3-----3-----2---|-0-----0----------|

|-3-----3---------|-----------------|------------------|

 

 

 F    C

 E Q  E S S E Q    S S E E E E E Q

|-1-1--0----------|--------------------|

|-1-1--1-----1----|-----1-1---1-1------|

|-2-2--0-----0----|-----0-0---0-0------|

|--------0h2---2--|-0h2-----2-----2----|

|------3----------|--------------------|

|-1-1-------------|--------------------|

 

 

 $

 G5      G5/F#     Em7     G5/F      C       Am7(type 2D   CaddG6/BEm7/A

 E E E E E E E E   E E E E E E E E   E E E E E E E E   E E E E E E E E

|-----3-------3---|-----3-------3---|-----0-------0---|---------0-------|

|-----3-------3---|-----3-------3---|-----1-------1---|---3---3---3---3-|

|---0---0---0---0-|---0---0---0---0-|---0---0---0---0-|-----0-------0---|

|-----------------|---------3-------|-----------------|-0---------------|

|-----------------|-----------------|-3-------0-------|-----3---2---0---|

|-3-------2-------|-0---------------|-----------------|-----------------|

Buy Now (£5.00)

The four files are provided in a zipped format.

1. A tab html file.

2. A tab doc file.

3. A .ptb powertab midi file - Powertab software can be downloaded from the introductory Guitar Tab page.

4. A .pdf file which is read in Adobe reader software and shows both tab, notation and the lyrics.

 

Please click on the orange button 'Buy Now' Paypal link alongside & on completion of payment in GB Pound Sterling (£), you will be given an automated download instruction. For more than one song just continue clicking the 'Buy Now' buttons and they are added to the Cart before final purchase.

Anywhere Like Heaven websample view cart